Moll-Pentatonik - Pattern 5

Autor Diese E-Mail-Adresse ist vor Spambots geschützt! Zur Anzeige muss JavaScript eingeschaltet sein!
Beschreibung Die Pentatonik ist das Mittel zum Solispiel und improvisieren.

Moll Pentatonik Pattern 5

Wir bleiben wie beim Pattern 1 in der Tonart G. Und so sieht Pattern 5 auf dem Griffbrett aus.

minor_pattern5

Übung: Ihr spielt das Pattern wie folgt von der hohen E-Saite und zurück!

MP3 MP3 anhören

p_pattern5

oder

p_pattern5b


So, jetzt kennt ihr alle fünf Pattern! Übt sie, bis ihr sie flüssig spielen könnt.

Übung: Verschiebt die Pattern in andere Tonarten!

Denn jetzt schauen wir mal, wie wir diese Pattern auf de Griffbrett verbinden:

1 = Noten von Pattern 1
2 = Noten von Pattern 2
1/2 = gemeinsame Töne von Pattern 1 und 2.
3 = Noten von Pattern 3
2/3 = gemeinsame Töne von Pattern 2 und 3
4 = Noten von Pattern 4
3/4 = gemeinsame Töne von Pattern 3 und 4
5 = Noten von Pattern 5
4/5 = gemeinsame Töne von Pattern 4 und 5

   1     2     3     4     5     6     7     8     9
|--5--|-----|--1--|-----|-----|-1/2-|-----|-2/3-|-----|
|--5--|-----|--1--|-----|-----|-1/2-|-----|-2/3-|-----|
|-----|-----|--1--|-----|-1/2-|-----|-2/3-|-----|-----|
|-----|-----|--1--|-----|-1/2-|-----|-----|-2/3-|-----|
|--5--|-----|--1--|-----|-1/2-|-----|-----|-2/3-|-----|
|--5--|-----|--1--|-----|-----|-1/2-|-----|-2/3-|-----|

  10    11     12    13    14    15
|-3/4-|-----|-----|-4/5--|-----|--5--|
|-----|-3/4-|-----|-4/5--|-----|--5--|
|-3/4-|-----|-4/5-|------|-----|--5--|
|-3/4-|-----|-4/5-|------|-----|--5--|
|-3/4-|-----|-----|-4/5--|-----|--5--|
|-3/4-|-----|-----|-4/5--|-----|--5--|

Wichtig: Da sich die Töne der 1. - 12. Bünde ab dem 13. wiederholen (d.h. Die Noten des 1. Bundes sind dieselben wie auf dem 13. Bund,
die des 2. Bundes sind dieselben auf dem 14. Bund usw. habe ich die Töne unserer ersten Bünde andersfarbig noch einmal eingefügt,
so dass ihr alle spielbaren Töne der Tonart G auf dem Griffbrett sehen könnt (und nicht erst die ab dem 3. Bund).

Und hier nochmal alle Pattern zusammen (unabhängig von der Tonart)

Alle Pattern

Download

GuitarPro 5 Pentatonic Pattern in G